ISO-10303-21;
HEADER;
FILE_DESCRIPTION (( 'STEP AP214' ),
    '1' );
FILE_NAME ('FULLVAC BT1KF403840.STEP',
    '2019-04-24T08:20:26',
    ( '' ),
    ( '' ),
    'SwSTEP 2.0',
    'SolidWorks 2017',
    '' );
FILE_SCHEMA (( 'AUTOMOTIVE_DESIGN' ));
ENDSEC;

DATA;
#1 = CIRCLE ( 'NONE', #18, 19.05000000000000100 ) ;
#2 = EDGE_CURVE ( 'NONE', #181, #181, #196, .T. ) ;
#3 = DIRECTION ( 'NONE',  ( 1.000000000000000000, -0.0000000000000000000, 0.0000000000000000000 ) ) ;
#4 = EDGE_LOOP ( 'NONE', ( #217 ) ) ;
#5 = EDGE_CURVE ( 'NONE', #186, #186, #128, .T. ) ;
#6 = CARTESIAN_POINT ( 'NONE',  ( -2.540000000000000000, 0.0000000000000000000, 20.60000000000000100 ) ) ;
#7 = ADVANCED_FACE ( 'NONE', ( #258, #96 ), #131, .T. ) ;
#8 = VERTEX_POINT ( 'NONE', #215 ) ;
#9 = ADVANCED_FACE ( 'NONE', ( #15, #93 ), #210, .T. ) ;
#10 = ORIENTED_EDGE ( 'NONE', *, *, #173, .F. ) ;
#11 = CYLINDRICAL_SURFACE ( 'NONE', #111, 20.60000000000000100 ) ;
#12 = CLOSED_SHELL ( 'NONE', ( #174, #86, #7, #54, #50, #227, #49, #72, #9 ) ) ;
#13 = CARTESIAN_POINT ( 'NONE',  ( -3.038388356863341000, 0.0000000000000000000, -27.35673270176685200 ) ) ;
#14 = DIRECTION ( 'NONE',  ( 0.0000000000000000000, 0.0000000000000000000, 1.000000000000000000 ) ) ;
#15 = FACE_BOUND ( 'NONE', #34, .T. ) ;
#16 = DIRECTION ( 'NONE',  ( -1.000000000000000000, 0.0000000000000000000, 0.0000000000000000000 ) ) ;
#17 = DIRECTION ( 'NONE',  ( 0.0000000000000000000, 0.0000000000000000000, 1.000000000000000000 ) ) ;
#18 = AXIS2_PLACEMENT_3D ( 'NONE', #149, #164, #108 ) ;
#19 = ORIENTED_EDGE ( 'NONE', *, *, #173, .T. ) ;
#20 = AXIS2_PLACEMENT_3D ( 'NONE', #165, #3, #192 ) ;
#21 = EDGE_CURVE ( 'NONE', #198, #198, #89, .T. ) ;
#22 = DIRECTION ( 'NONE',  ( -1.000000000000000000, 0.0000000000000000000, 0.0000000000000000000 ) ) ;
#23 = ORIENTED_EDGE ( 'NONE', *, *, #5, .F. ) ;
#24 = FILL_AREA_STYLE ('',( #242 ) ) ;
#25 = DIRECTION ( 'NONE',  ( -1.000000000000000000, 0.0000000000000000000, 0.0000000000000000000 ) ) ;
#26 = DIRECTION ( 'NONE',  ( 0.0000000000000000000, 0.0000000000000000000, 1.000000000000000000 ) ) ;
#27 = CIRCLE ( 'NONE', #207, 20.60000000000000100 ) ;
#28 = ORIENTED_EDGE ( 'NONE', *, *, #248, .F. ) ;
#29 = FILL_AREA_STYLE_COLOUR ( '', #47 ) ;
#30 = VERTEX_POINT ( 'NONE', #106 ) ;
#31 = FACE_OUTER_BOUND ( 'NONE', #189, .T. ) ;
#32 = FACE_OUTER_BOUND ( 'NONE', #73, .T. ) ;
#33 =( BOUNDED_SURFACE ( )  B_SPLINE_SURFACE ( 3, 3, ( 
 ( #156, #159, #116, #57, #221, #251, #112 ),
 ( #98, #35, #182, #13, #38, #155, #184 ),
 ( #253, #158, #101, #58, #62, #203, #113 ),
 ( #236, #252, #121, #138, #41, #139, #65 ) ),
 .UNSPECIFIED., .F., .T., .F. ) 
 B_SPLINE_SURFACE_WITH_KNOTS ( ( 4, 4 ),
 ( 4, 3, 4 ),
 ( 0.0000000000000000000, 1.000000000000000000 ),
 ( 0.0000000000000000000, 0.5000000000000000000, 1.000000000000000000 ),
 .UNSPECIFIED. ) 
 GEOMETRIC_REPRESENTATION_ITEM ( )  RATIONAL_B_SPLINE_SURFACE ( (
 ( 1.000000000000000000, 0.3333333333333333100, 0.3333333333333333100, 1.000000000000000000, 0.3333333333333333100, 0.3333333333333333100, 1.000000000000000000),
 ( 0.8622355601941740200, 0.2874118533980579700, 0.2874118533980579700, 0.8622355601941740200, 0.2874118533980579700, 0.2874118533980579700, 0.8622355601941740200),
 ( 0.8622355601941740200, 0.2874118533980579700, 0.2874118533980579700, 0.8622355601941740200, 0.2874118533980579700, 0.2874118533980579700, 0.8622355601941740200),
 ( 1.000000000000000000, 0.3333333333333333100, 0.3333333333333333100, 1.000000000000000000, 0.3333333333333333100, 0.3333333333333333100, 1.000000000000000000) ) ) 
 REPRESENTATION_ITEM ( '' )  SURFACE ( )  );
#34 = EDGE_LOOP ( 'NONE', ( #224 ) ) ;
#35 = CARTESIAN_POINT ( 'NONE',  ( -3.038388356863341400, 54.71346540353370400, 27.35673270176685200 ) ) ;
#36 =( LENGTH_UNIT ( ) NAMED_UNIT ( * ) SI_UNIT ( .MILLI., .METRE. ) );
#37 =( NAMED_UNIT ( * ) PLANE_ANGLE_UNIT ( ) SI_UNIT ( $, .RADIAN. ) );
#38 = CARTESIAN_POINT ( 'NONE',  ( -3.038388356863341400, -54.71346540353370400, -27.35673270176685200 ) ) ;
#39 = PRODUCT_DEFINITION ( 'UNKNOWN', '', #197, #43 ) ;
#40 = DIRECTION ( 'NONE',  ( 1.000000000000000000, 0.0000000000000000000, -0.0000000000000000000 ) ) ;
#41 = CARTESIAN_POINT ( 'NONE',  ( -2.616336506010520100, -55.00000000000000000, -27.50000000000000000 ) ) ;
#42 = CARTESIAN_POINT ( 'NONE',  ( 0.0000000000000000000, 0.0000000000000000000, 0.0000000000000000000 ) ) ;
#43 = PRODUCT_DEFINITION_CONTEXT ( 'detailed design', #114, 'design' ) ;
#44 = EDGE_LOOP ( 'NONE', ( #83 ) ) ;
#45 = ORIENTED_EDGE ( 'NONE', *, *, #21, .F. ) ;
#46 = AXIS2_PLACEMENT_3D ( 'NONE', #161, #205, #163 ) ;
#47 = COLOUR_RGB ( '',0.7450980392156862900, 0.7450980392156862900, 0.7450980392156862900 ) ;
#48 = SURFACE_STYLE_FILL_AREA ( #24 ) ;
#49 = ADVANCED_FACE ( 'NONE', ( #31, #145 ), #130, .T. ) ;
#50 = ADVANCED_FACE ( 'NONE', ( #187, #55 ), #33, .T. ) ;
#51 = EDGE_CURVE ( 'NONE', #30, #30, #175, .T. ) ;
#52 = CARTESIAN_POINT ( 'NONE',  ( 0.0000000000000000000, 0.0000000000000000000, 27.50000000000000000 ) ) ;
#53 = CIRCLE ( 'NONE', #233, 17.44999999999999900 ) ;
#54 = ADVANCED_FACE ( 'NONE', ( #177, #32 ), #67, .F. ) ;
#55 = FACE_OUTER_BOUND ( 'NONE', #231, .T. ) ;
#56 = EDGE_LOOP ( 'NONE', ( #103 ) ) ;
#57 = CARTESIAN_POINT ( 'NONE',  ( -3.099299419155043400, 0.0000000000000000000, -27.12940952255130300 ) ) ;
#58 = CARTESIAN_POINT ( 'NONE',  ( -2.851678778707475500, 0.0000000000000000000, -27.50000000000000400 ) ) ;
#59 = APPLICATION_PROTOCOL_DEFINITION ( 'draft international standard', 'automotive_design', 1998, #79 ) ;
#60 = DIRECTION ( 'NONE',  ( 0.0000000000000000000, 0.0000000000000000000, 1.000000000000000000 ) ) ;
#61 = DIRECTION ( 'NONE',  ( -1.000000000000000000, 0.0000000000000000000, 0.0000000000000000000 ) ) ;
#62 = CARTESIAN_POINT ( 'NONE',  ( -2.851678778707475100, -55.00000000000000700, -27.50000000000000400 ) ) ;
#63 = AXIS2_PLACEMENT_3D ( 'NONE', #71, #146, #26 ) ;
#64 = EDGE_LOOP ( 'NONE', ( #10 ) ) ;
#65 = CARTESIAN_POINT ( 'NONE',  ( -2.616336506010520100, 0.0000000000000000000, 27.50000000000000000 ) ) ;
#66 =( NAMED_UNIT ( * ) PLANE_ANGLE_UNIT ( ) SI_UNIT ( $, .RADIAN. ) );
#67 = CYLINDRICAL_SURFACE ( 'NONE', #153, 17.44999999999999900 ) ;
#68 = PLANE ( 'NONE',  #136 ) ;
#69 = DIRECTION ( 'NONE',  ( 0.0000000000000000000, 0.0000000000000000000, 1.000000000000000000 ) ) ;
#70 = CARTESIAN_POINT ( 'NONE',  ( 0.0000000000000000000, 0.0000000000000000000, 0.0000000000000000000 ) ) ;
#71 = CARTESIAN_POINT ( 'NONE',  ( 0.0000000000000000000, 0.0000000000000000000, 0.0000000000000000000 ) ) ;
#72 = ADVANCED_FACE ( 'NONE', ( #107, #257 ), #11, .F. ) ;
#73 = EDGE_LOOP ( 'NONE', ( #167 ) ) ;
#74 = VERTEX_POINT ( 'NONE', #6 ) ;
#75 = EDGE_LOOP ( 'NONE', ( #193 ) ) ;
#76 = AXIS2_PLACEMENT_3D ( 'NONE', #223, #185, #69 ) ;
#77 = SHAPE_DEFINITION_REPRESENTATION ( #129, #247 ) ;
#78 = EDGE_CURVE ( 'NONE', #143, #143, #123, .T. ) ;
#79 = APPLICATION_CONTEXT ( 'automotive_design' ) ;
#80 = DIRECTION ( 'NONE',  ( 0.0000000000000000000, 0.0000000000000000000, 1.000000000000000000 ) ) ;
#81 = DIRECTION ( 'NONE',  ( -1.000000000000000000, 0.0000000000000000000, 0.0000000000000000000 ) ) ;
#82 = DIRECTION ( 'NONE',  ( -1.000000000000000000, -0.0000000000000000000, -0.0000000000000000000 ) ) ;
#83 = ORIENTED_EDGE ( 'NONE', *, *, #78, .F. ) ;
#84 = DIRECTION ( 'NONE',  ( 1.000000000000000000, -0.0000000000000000000, 0.0000000000000000000 ) ) ;
#85 = ORIENTED_EDGE ( 'NONE', *, *, #157, .T. ) ;
#86 = ADVANCED_FACE ( 'NONE', ( #168, #238 ), #68, .F. ) ;
#87 = CARTESIAN_POINT ( 'NONE',  ( -3.099299419171432500, 27.12940952255569400, 0.0000000000000000000 ) ) ;
#88 = CARTESIAN_POINT ( 'NONE',  ( -2.540000000000000000, 0.0000000000000000000, 0.0000000000000000000 ) ) ;
#89 = CIRCLE ( 'NONE', #225, 27.50000000000000000 ) ;
#90 = STYLED_ITEM ( 'NONE', ( #144 ), #166 ) ;
#91 =( NAMED_UNIT ( * ) PLANE_ANGLE_UNIT ( ) SI_UNIT ( $, .RADIAN. ) );
#92 = VERTEX_POINT ( 'NONE', #52 ) ;
#93 = FACE_OUTER_BOUND ( 'NONE', #152, .T. ) ;
#94 = ORIENTED_EDGE ( 'NONE', *, *, #248, .T. ) ;
#95 = CIRCLE ( 'NONE', #76, 27.50000000000000000 ) ;
#96 = FACE_BOUND ( 'NONE', #169, .T. ) ;
#97 = UNCERTAINTY_MEASURE_WITH_UNIT (LENGTH_MEASURE( 1.000000000000000100E-005 ), #122, 'distance_accuracy_value', 'NONE');
#98 = CARTESIAN_POINT ( 'NONE',  ( -3.038388356863341000, 0.0000000000000000000, 27.35673270176685200 ) ) ;
#99 = AXIS2_PLACEMENT_3D ( 'NONE', #218, #81, #80 ) ;
#100 = DIRECTION ( 'NONE',  ( 0.0000000000000000000, 0.0000000000000000000, -1.000000000000000000 ) ) ;
#101 = CARTESIAN_POINT ( 'NONE',  ( -2.851678778707475100, 55.00000000000000700, -27.50000000000000400 ) ) ;
#102 = CARTESIAN_POINT ( 'NONE',  ( -2.616336506010520100, 0.0000000000000000000, 0.0000000000000000000 ) ) ;
#103 = ORIENTED_EDGE ( 'NONE', *, *, #51, .T. ) ;
#104 = AXIS2_PLACEMENT_3D ( 'NONE', #105, #82, #206 ) ;
#105 = CARTESIAN_POINT ( 'NONE',  ( -3.099299419171432500, 0.0000000000000000000, 0.0000000000000000000 ) ) ;
#106 = CARTESIAN_POINT ( 'NONE',  ( -2.540000000000000000, 0.0000000000000000000, 17.44999999999999900 ) ) ;
#107 = FACE_OUTER_BOUND ( 'NONE', #171, .T. ) ;
#108 = DIRECTION ( 'NONE',  ( 0.0000000000000000000, 0.0000000000000000000, 1.000000000000000000 ) ) ;
#109 = EDGE_LOOP ( 'NONE', ( #94 ) ) ;
#110 =( NAMED_UNIT ( * ) SI_UNIT ( $, .STERADIAN. ) SOLID_ANGLE_UNIT ( ) );
#111 = AXIS2_PLACEMENT_3D ( 'NONE', #70, #124, #188 ) ;
#112 = CARTESIAN_POINT ( 'NONE',  ( -3.099299419155043400, 0.0000000000000000000, 27.12940952255130300 ) ) ;
#113 = CARTESIAN_POINT ( 'NONE',  ( -2.851678778707475500, 0.0000000000000000000, 27.50000000000000400 ) ) ;
#114 = APPLICATION_CONTEXT ( 'automotive_design' ) ;
#115 = COLOUR_RGB ( '',0.7450980392156862900, 0.7450980392156862900, 0.7450980392156862900 ) ;
#116 = CARTESIAN_POINT ( 'NONE',  ( -3.099299419155042900, 54.25881904510259800, -27.12940952255129900 ) ) ;
#117 = AXIS2_PLACEMENT_3D ( 'NONE', #142, #14, #180 ) ;
#118 = DIRECTION ( 'NONE',  ( -1.000000000000000000, 0.0000000000000000000, 0.0000000000000000000 ) ) ;
#119 = STYLED_ITEM ( 'NONE', ( #249 ), #247 ) ;
#120 = EDGE_LOOP ( 'NONE', ( #222 ) ) ;
#121 = CARTESIAN_POINT ( 'NONE',  ( -2.616336506010520100, 55.00000000000000000, -27.50000000000000000 ) ) ;
#122 =( LENGTH_UNIT ( ) NAMED_UNIT ( * ) SI_UNIT ( .MILLI., .METRE. ) );
#123 = CIRCLE ( 'NONE', #104, 27.12940952255569400 ) ;
#124 = DIRECTION ( 'NONE',  ( -1.000000000000000000, 0.0000000000000000000, 0.0000000000000000000 ) ) ;
#125 = CARTESIAN_POINT ( 'NONE',  ( -40.00000000000000000, 3.885294924322510200E-016, 9.714716642291439400E-016 ) ) ;
#126 = EDGE_LOOP ( 'NONE', ( #85 ) ) ;
#127 = VERTEX_POINT ( 'NONE', #170 ) ;
#128 = CIRCLE ( 'NONE', #162, 20.60000000000000100 ) ;
#129 = PRODUCT_DEFINITION_SHAPE ( 'NONE', 'NONE',  #39 ) ;
#130 = CYLINDRICAL_SURFACE ( 'NONE', #99, 27.50000000000000000 ) ;
#131 = CONICAL_SURFACE ( 'NONE', #178, 27.12940952255569400, 1.308996939000000000 ) ;
#132 = CARTESIAN_POINT ( 'NONE',  ( -40.00000000000000000, 0.0000000000000000000, 0.0000000000000000000 ) ) ;
#133 = PRESENTATION_LAYER_ASSIGNMENT (  '', '', ( #90 ) ) ;
#134 = FILL_AREA_STYLE ('',( #29 ) ) ;
#135 = APPLICATION_PROTOCOL_DEFINITION ( 'draft international standard', 'automotive_design', 1998, #114 ) ;
#136 = AXIS2_PLACEMENT_3D ( 'NONE', #125, #84, #256 ) ;
#137 = SURFACE_SIDE_STYLE ('',( #220 ) ) ;
#138 = CARTESIAN_POINT ( 'NONE',  ( -2.616336506010520100, 0.0000000000000000000, -27.50000000000000000 ) ) ;
#139 = CARTESIAN_POINT ( 'NONE',  ( -2.616336506010520100, -55.00000000000000000, 27.50000000000000000 ) ) ;
#140 = UNCERTAINTY_MEASURE_WITH_UNIT (LENGTH_MEASURE( 1.000000000000000100E-005 ), #195, 'distance_accuracy_value', 'NONE');
#141 = MECHANICAL_DESIGN_GEOMETRIC_PRESENTATION_REPRESENTATION (  '', ( #90 ), #214 ) ;
#142 = CARTESIAN_POINT ( 'NONE',  ( 0.0000000000000000000, 0.0000000000000000000, 0.0000000000000000000 ) ) ;
#143 = VERTEX_POINT ( 'NONE', #87 ) ;
#144 = PRESENTATION_STYLE_ASSIGNMENT (( #240 ) ) ;
#145 = FACE_OUTER_BOUND ( 'NONE', #126, .T. ) ;
#146 = DIRECTION ( 'NONE',  ( -1.000000000000000000, 0.0000000000000000000, 0.0000000000000000000 ) ) ;
#147 = ORIENTED_EDGE ( 'NONE', *, *, #21, .T. ) ;
#148 =( NAMED_UNIT ( * ) SI_UNIT ( $, .STERADIAN. ) SOLID_ANGLE_UNIT ( ) );
#149 = CARTESIAN_POINT ( 'NONE',  ( -40.00000000000000000, 0.0000000000000000000, 0.0000000000000000000 ) ) ;
#150 = AXIS2_PLACEMENT_3D ( 'NONE', #183, #61, #17 ) ;
#151 = PRODUCT ( 'FULLVAC BT1KF403840', 'FULLVAC BT1KF403840', '', ( #219 ) ) ;
#152 = EDGE_LOOP ( 'NONE', ( #200 ) ) ;
#153 = AXIS2_PLACEMENT_3D ( 'NONE', #42, #22, #160 ) ;
#154 = EDGE_LOOP ( 'NONE', ( #19 ) ) ;
#155 = CARTESIAN_POINT ( 'NONE',  ( -3.038388356863341400, -54.71346540353370400, 27.35673270176685200 ) ) ;
#156 = CARTESIAN_POINT ( 'NONE',  ( -3.099299419155043400, 0.0000000000000000000, 27.12940952255130300 ) ) ;
#157 = EDGE_CURVE ( 'NONE', #92, #92, #95, .T. ) ;
#158 = CARTESIAN_POINT ( 'NONE',  ( -2.851678778707475100, 55.00000000000000700, 27.50000000000000400 ) ) ;
#159 = CARTESIAN_POINT ( 'NONE',  ( -3.099299419155042900, 54.25881904510259800, 27.12940952255129900 ) ) ;
#160 = DIRECTION ( 'NONE',  ( 0.0000000000000000000, 0.0000000000000000000, 1.000000000000000000 ) ) ;
#161 = CARTESIAN_POINT ( 'NONE',  ( -2.540000000000000000, 0.0000000000000000000, 0.0000000000000000000 ) ) ;
#162 = AXIS2_PLACEMENT_3D ( 'NONE', #234, #118, #254 ) ;
#163 = DIRECTION ( 'NONE',  ( 0.0000000000000000000, 0.0000000000000000000, 1.000000000000000000 ) ) ;
#164 = DIRECTION ( 'NONE',  ( 1.000000000000000000, -0.0000000000000000000, -0.0000000000000000000 ) ) ;
#165 = CARTESIAN_POINT ( 'NONE',  ( 0.0000000000000000000, -2.433808030138239900E-015, 0.0000000000000000000 ) ) ;
#166 = MANIFOLD_SOLID_BREP ( '\X2\5BE69AD4\X0\1', #12 ) ;
#167 = ORIENTED_EDGE ( 'NONE', *, *, #51, .F. ) ;
#168 = FACE_BOUND ( 'NONE', #64, .T. ) ;
#169 = EDGE_LOOP ( 'NONE', ( #190 ) ) ;
#170 = CARTESIAN_POINT ( 'NONE',  ( -40.00000000000000000, 0.0000000000000000000, 17.44999999999999900 ) ) ;
#171 = EDGE_LOOP ( 'NONE', ( #23 ) ) ;
#172 = FACE_OUTER_BOUND ( 'NONE', #75, .T. ) ;
#173 = EDGE_CURVE ( 'NONE', #127, #127, #53, .T. ) ;
#174 = ADVANCED_FACE ( 'NONE', ( #213, #172 ), #237, .T. ) ;
#175 = CIRCLE ( 'NONE', #46, 17.44999999999999900 ) ;
#176 = EDGE_LOOP ( 'NONE', ( #28 ) ) ;
#177 = FACE_OUTER_BOUND ( 'NONE', #154, .T. ) ;
#178 = AXIS2_PLACEMENT_3D ( 'NONE', #202, #40, #100 ) ;
#179 = AXIS2_PLACEMENT_3D ( 'NONE', #194, #244, #212 ) ;
#180 = DIRECTION ( 'NONE',  ( 1.000000000000000000, 0.0000000000000000000, 0.0000000000000000000 ) ) ;
#181 = VERTEX_POINT ( 'NONE', #245 ) ;
#182 = CARTESIAN_POINT ( 'NONE',  ( -3.038388356863341400, 54.71346540353370400, -27.35673270176685200 ) ) ;
#183 = CARTESIAN_POINT ( 'NONE',  ( -5.264170676042990500, 0.0000000000000000000, 0.0000000000000000000 ) ) ;
#184 = CARTESIAN_POINT ( 'NONE',  ( -3.038388356863341000, 0.0000000000000000000, 27.35673270176685200 ) ) ;
#185 = DIRECTION ( 'NONE',  ( -1.000000000000000000, 0.0000000000000000000, 0.0000000000000000000 ) ) ;
#186 = VERTEX_POINT ( 'NONE', #211 ) ;
#187 = FACE_OUTER_BOUND ( 'NONE', #44, .T. ) ;
#188 = DIRECTION ( 'NONE',  ( 0.0000000000000000000, 0.0000000000000000000, 1.000000000000000000 ) ) ;
#189 = EDGE_LOOP ( 'NONE', ( #45 ) ) ;
#190 = ORIENTED_EDGE ( 'NONE', *, *, #2, .F. ) ;
#191 = PLANE ( 'NONE',  #179 ) ;
#192 = DIRECTION ( 'NONE',  ( 0.0000000000000000000, 0.0000000000000000000, -1.000000000000000000 ) ) ;
#193 = ORIENTED_EDGE ( 'NONE', *, *, #2, .T. ) ;
#194 = CARTESIAN_POINT ( 'NONE',  ( -2.540000000000000000, -3.592954772249700200E-016, 9.288219883035680400E-016 ) ) ;
#195 =( LENGTH_UNIT ( ) NAMED_UNIT ( * ) SI_UNIT ( .MILLI., .METRE. ) );
#196 = CIRCLE ( 'NONE', #150, 19.05000000000000100 ) ;
#197 = PRODUCT_DEFINITION_FORMATION_WITH_SPECIFIED_SOURCE ( 'ANY', '', #151, .NOT_KNOWN. ) ;
#198 = VERTEX_POINT ( 'NONE', #246 ) ;
#199 = EDGE_LOOP ( 'NONE', ( #204 ) ) ;
#200 = ORIENTED_EDGE ( 'NONE', *, *, #157, .F. ) ;
#201 = UNCERTAINTY_MEASURE_WITH_UNIT (LENGTH_MEASURE( 1.000000000000000100E-005 ), #36, 'distance_accuracy_value', 'NONE');
#202 = CARTESIAN_POINT ( 'NONE',  ( -3.099299419171431600, 0.0000000000000000000, 0.0000000000000000000 ) ) ;
#203 = CARTESIAN_POINT ( 'NONE',  ( -2.851678778707475100, -55.00000000000000700, 27.50000000000000400 ) ) ;
#204 = ORIENTED_EDGE ( 'NONE', *, *, #241, .F. ) ;
#205 = DIRECTION ( 'NONE',  ( -1.000000000000000000, 0.0000000000000000000, 0.0000000000000000000 ) ) ;
#206 = DIRECTION ( 'NONE',  ( 0.0000000000000000000, 1.000000000000000000, 0.0000000000000000000 ) ) ;
#207 = AXIS2_PLACEMENT_3D ( 'NONE', #88, #229, #208 ) ;
#208 = DIRECTION ( 'NONE',  ( 0.0000000000000000000, 0.0000000000000000000, 1.000000000000000000 ) ) ;
#209 = DIRECTION ( 'NONE',  ( 0.0000000000000000000, 0.0000000000000000000, 1.000000000000000000 ) ) ;
#210 = PLANE ( 'NONE',  #20 ) ;
#211 = CARTESIAN_POINT ( 'NONE',  ( 0.0000000000000000000, 0.0000000000000000000, 20.60000000000000100 ) ) ;
#212 = DIRECTION ( 'NONE',  ( 0.0000000000000000000, 0.0000000000000000000, -1.000000000000000000 ) ) ;
#213 = FACE_OUTER_BOUND ( 'NONE', #109, .T. ) ;
#214 =( GEOMETRIC_REPRESENTATION_CONTEXT ( 3 ) GLOBAL_UNCERTAINTY_ASSIGNED_CONTEXT ( ( #97 ) ) GLOBAL_UNIT_ASSIGNED_CONTEXT ( ( #122, #66, #148 ) ) REPRESENTATION_CONTEXT ( 'NONE', 'WORKASPACE' ) );
#215 = CARTESIAN_POINT ( 'NONE',  ( -40.00000000000000000, 0.0000000000000000000, 19.05000000000000100 ) ) ;
#216 = MECHANICAL_DESIGN_GEOMETRIC_PRESENTATION_REPRESENTATION (  '', ( #119 ), #250 ) ;
#217 = ORIENTED_EDGE ( 'NONE', *, *, #78, .T. ) ;
#218 = CARTESIAN_POINT ( 'NONE',  ( 0.0000000000000000000, 0.0000000000000000000, 0.0000000000000000000 ) ) ;
#219 = PRODUCT_CONTEXT ( 'NONE', #79, 'mechanical' ) ;
#220 = SURFACE_STYLE_FILL_AREA ( #134 ) ;
#221 = CARTESIAN_POINT ( 'NONE',  ( -3.099299419155042900, -54.25881904510259800, -27.12940952255129900 ) ) ;
#222 = ORIENTED_EDGE ( 'NONE', *, *, #241, .T. ) ;
#223 = CARTESIAN_POINT ( 'NONE',  ( 0.0000000000000000000, 0.0000000000000000000, 0.0000000000000000000 ) ) ;
#224 = ORIENTED_EDGE ( 'NONE', *, *, #5, .T. ) ;
#225 = AXIS2_PLACEMENT_3D ( 'NONE', #102, #16, #60 ) ;
#226 = FACE_BOUND ( 'NONE', #56, .T. ) ;
#227 = ADVANCED_FACE ( 'NONE', ( #226, #230 ), #191, .T. ) ;
#228 = PRESENTATION_LAYER_ASSIGNMENT (  '', '', ( #119 ) ) ;
#229 = DIRECTION ( 'NONE',  ( 1.000000000000000000, -0.0000000000000000000, -0.0000000000000000000 ) ) ;
#230 = FACE_OUTER_BOUND ( 'NONE', #120, .T. ) ;
#231 = EDGE_LOOP ( 'NONE', ( #147 ) ) ;
#232 = SURFACE_STYLE_USAGE ( .BOTH. , #137 ) ;
#233 = AXIS2_PLACEMENT_3D ( 'NONE', #132, #25, #209 ) ;
#234 = CARTESIAN_POINT ( 'NONE',  ( 0.0000000000000000000, 0.0000000000000000000, 0.0000000000000000000 ) ) ;
#235 =( NAMED_UNIT ( * ) SI_UNIT ( $, .STERADIAN. ) SOLID_ANGLE_UNIT ( ) );
#236 = CARTESIAN_POINT ( 'NONE',  ( -2.616336506010520100, 0.0000000000000000000, 27.50000000000000000 ) ) ;
#237 = CYLINDRICAL_SURFACE ( 'NONE', #63, 19.05000000000000100 ) ;
#238 = FACE_OUTER_BOUND ( 'NONE', #176, .T. ) ;
#239 = SURFACE_SIDE_STYLE ('',( #48 ) ) ;
#240 = SURFACE_STYLE_USAGE ( .BOTH. , #239 ) ;
#241 = EDGE_CURVE ( 'NONE', #74, #74, #27, .T. ) ;
#242 = FILL_AREA_STYLE_COLOUR ( '', #115 ) ;
#243 =( GEOMETRIC_REPRESENTATION_CONTEXT ( 3 ) GLOBAL_UNCERTAINTY_ASSIGNED_CONTEXT ( ( #140 ) ) GLOBAL_UNIT_ASSIGNED_CONTEXT ( ( #195, #91, #110 ) ) REPRESENTATION_CONTEXT ( 'NONE', 'WORKASPACE' ) );
#244 = DIRECTION ( 'NONE',  ( 1.000000000000000000, -0.0000000000000000000, 0.0000000000000000000 ) ) ;
#245 = CARTESIAN_POINT ( 'NONE',  ( -5.264170676042990500, 0.0000000000000000000, 19.05000000000000100 ) ) ;
#246 = CARTESIAN_POINT ( 'NONE',  ( -2.616336506010520100, 0.0000000000000000000, 27.50000000000000000 ) ) ;
#247 = ADVANCED_BREP_SHAPE_REPRESENTATION ( 'FULLVAC BT1KF403840', ( #166, #117 ), #243 ) ;
#248 = EDGE_CURVE ( 'NONE', #8, #8, #1, .T. ) ;
#249 = PRESENTATION_STYLE_ASSIGNMENT (( #232 ) ) ;
#250 =( GEOMETRIC_REPRESENTATION_CONTEXT ( 3 ) GLOBAL_UNCERTAINTY_ASSIGNED_CONTEXT ( ( #201 ) ) GLOBAL_UNIT_ASSIGNED_CONTEXT ( ( #36, #37, #235 ) ) REPRESENTATION_CONTEXT ( 'NONE', 'WORKASPACE' ) );
#251 = CARTESIAN_POINT ( 'NONE',  ( -3.099299419155042900, -54.25881904510259800, 27.12940952255129900 ) ) ;
#252 = CARTESIAN_POINT ( 'NONE',  ( -2.616336506010520100, 55.00000000000000000, 27.50000000000000000 ) ) ;
#253 = CARTESIAN_POINT ( 'NONE',  ( -2.851678778707475500, 0.0000000000000000000, 27.50000000000000400 ) ) ;
#254 = DIRECTION ( 'NONE',  ( 0.0000000000000000000, 0.0000000000000000000, 1.000000000000000000 ) ) ;
#255 = PRODUCT_RELATED_PRODUCT_CATEGORY ( 'part', '', ( #151 ) ) ;
#256 = DIRECTION ( 'NONE',  ( 0.0000000000000000000, 0.0000000000000000000, -1.000000000000000000 ) ) ;
#257 = FACE_OUTER_BOUND ( 'NONE', #199, .T. ) ;
#258 = FACE_OUTER_BOUND ( 'NONE', #4, .T. ) ;
ENDSEC;
END-ISO-10303-21;
